Welcome

Anti Essays offers essay examples to help students with their essay writing.

Sign Up

By Chance Essay

  • Submitted by: aikoramos
  • on March 18, 2012
  • Category: Arts and Music
  • Length: 539 words

Open Document

Below is an essay on "By Chance" from Anti Essays, your source for research papers, essays, and term paper examples.

Capo 3

  G       D       Am     C
----------------------------------|
---3-3-----3-3-----1-1-----1-1----|
---0-0-----2-2-----2-2-----0-0----|
---0-0-----0-0-----2-2-----2-2----|
---------0------0--------3--------|
-3--------------------------------|

Intro:

          G           D         Am                   C           STRUM (ONCE)
----------------------2-2---2-2---------------0------------------------0---|
-----3--3----3--3-----3-3---3-3--------1---1-----1----------1---1-----1----|
-----0--0----0--0-----2-2---2-2------2---2-----2-----------0---0-----0-----|
-----0--0----0--0---0-----0--------2--------------------2-----------2------|
-----------2--------------------0---------------------3------------3-------|
---3-----------------------------------------------------------------------|

G     G                     D
Hi, girl you just caught my eye
D                         Am
thought I should give it try
              Am
and get your name & your number
C                     C
go grab some lunch & eat some cucumbers
G             G
Why, did I say that?
              D
I don't know why.
        D                             Am
But you're smilin' and it's something' i like
              Am
on your face, yeah it suits you
C (strum once)                                       Am
girl we connect like we have bluetooth

                C
I don't know why
              G
I'm drawn to you
                      D                     Am
Could you be the other one so we'd equal two?
                  C                 G
and this is all based on a lucky chance
                      D (strum once)
that you would rather add then subtract

G         D
  You & I
                Am
could be like sonny & cher
C
honey & bears
G         D
  You & I
                Am
could be like aladdin & jasmine
C
lets make it happen, like

G, D, Am, C
G, D, Am, C

G               G
Hey, how've you been?
                      D
I...

Show More


Citations

MLA Citation

"By Chance". Anti Essays. 15 Dec. 2018

<http://parimatchstavki7.com/free-essays/By-Chance-187410.html>

APA Citation

By Chance. Anti Essays. Retrieved December 15, 2018, from the World Wide Web: http://parimatchstavki7.com/free-essays/By-Chance-187410.html